ISO-10303-21;
HEADER;
FILE_DESCRIPTION (( 'STEP AP203' ),
    '1' );
FILE_NAME ('QM-CAHWP-15-900-2100-M.STEP',
    '2021-01-05T02:35:14',
    ( '' ),
    ( '' ),
    'SwSTEP 2.0',
    'SolidWorks 2020',
    '' );
FILE_SCHEMA (( 'CONFIG_CONTROL_DESIGN' ));
ENDSEC;

DATA;
#1 = ORIENTED_EDGE ( 'NONE', *, *, #272, .T. ) ;
#2 = AXIS2_PLACEMENT_3D ( 'NONE', #66, #255, #68 ) ;
#3 = FACE_OUTER_BOUND ( 'NONE', #27, .T. ) ;
#4 = PLANE ( 'NONE',  #70 ) ;
#5 = ORIENTED_EDGE ( 'NONE', *, *, #167, .T. ) ;
#6 = COORDINATED_UNIVERSAL_TIME_OFFSET ( 8, 0, .AHEAD. ) ;
#7 = VERTEX_POINT ( 'NONE', #59 ) ;
#8 =( GEOMETRIC_REPRESENTATION_CONTEXT ( 3 ) GLOBAL_UNCERTAINTY_ASSIGNED_CONTEXT ( ( #22 ) ) GLOBAL_UNIT_ASSIGNED_CONTEXT ( ( #232, #236, #206 ) ) REPRESENTATION_CONTEXT ( 'NONE', 'WORKASPACE' ) );
#9 = ADVANCED_FACE ( 'NONE', ( #3 ), #244, .T. ) ;
#10 = DIRECTION ( 'NONE',  ( 1.000000000000000000, 0.000000000000000000, 0.000000000000000000 ) ) ;
#11 = CARTESIAN_POINT ( 'NONE',  ( -0.5000000000000004441, 7.500000000000000000, 0.000000000000000000 ) ) ;
#12 = CIRCLE ( 'NONE', #88, 12.69999999999999929 ) ;
#13 = APPROVAL_DATE_TIME ( #73, #51 ) ;
#14 = CARTESIAN_POINT ( 'NONE',  ( -1.614212418857619014, 0.000000000000000000, 7.499999999999998224 ) ) ;
#15 = CALENDAR_DATE ( 2021, 5, 1 ) ;
#16 = CIRCLE ( 'NONE', #2, 12.69999999999999929 ) ;
#17 = CARTESIAN_POINT ( 'NONE',  ( -1.614212418857619014, 9.184850993605145972E-16, -7.499999999999998224 ) ) ;
#18 = FACE_OUTER_BOUND ( 'NONE', #212, .T. ) ;
#19 = PERSON ( 'UNSPECIFIED', 'UNSPECIFIED', 'UNSPECIFIED', ('UNSPECIFIED'), ('UNSPECIFIED'), ('UNSPECIFIED') ) ;
#20 = CC_DESIGN_APPROVAL ( #153, ( #283 ) ) ;
#21 = DATE_AND_TIME ( #152, #146 ) ;
#22 = UNCERTAINTY_MEASURE_WITH_UNIT (LENGTH_MEASURE( 1.000000000000000082E-05 ), #232, 'distance_accuracy_value', 'NONE');
#23 = MECHANICAL_CONTEXT ( 'NONE', #254, 'mechanical' ) ;
#24 = EDGE_LOOP ( 'NONE', ( #241, #181, #139, #28 ) ) ;
#25 = LINE ( 'NONE', #48, #316 ) ;
#26 = APPROVAL_PERSON_ORGANIZATION ( #100, #51, #46 ) ;
#27 = EDGE_LOOP ( 'NONE', ( #82, #289, #71, #127 ) ) ;
#28 = ORIENTED_EDGE ( 'NONE', *, *, #242, .F. ) ;
#29 = PLANE ( 'NONE',  #52 ) ;
#30 = CARTESIAN_POINT ( 'NONE',  ( 3.000000000000000000, 0.000000000000000000, 0.000000000000000000 ) ) ;
#31 = CARTESIAN_POINT ( 'NONE',  ( -1.614212418857619014, 0.000000000000000000, 0.000000000000000000 ) ) ;
#32 = EDGE_CURVE ( 'NONE', #300, #237, #221, .T. ) ;
#33 = ORIENTED_EDGE ( 'NONE', *, *, #81, .T. ) ;
#34 = VERTEX_POINT ( 'NONE', #214 ) ;
#35 = CC_DESIGN_APPROVAL ( #51, ( #334 ) ) ;
#36 = DIRECTION ( 'NONE',  ( -1.000000000000000000, -0.000000000000000000, -0.000000000000000000 ) ) ;
#37 = FACE_OUTER_BOUND ( 'NONE', #296, .T. ) ;
#38 = ADVANCED_FACE ( 'NONE', ( #315 ), #294, .F. ) ;
#39 = AXIS2_PLACEMENT_3D ( 'NONE', #147, #257, #323 ) ;
#40 = DIRECTION ( 'NONE',  ( -1.000000000000000000, -0.000000000000000000, -0.000000000000000000 ) ) ;
#41 = FACE_OUTER_BOUND ( 'NONE', #284, .T. ) ;
#42 = EDGE_CURVE ( 'NONE', #271, #238, #320, .T. ) ;
#43 = CARTESIAN_POINT ( 'NONE',  ( -0.5000000000000004441, 9.184850993605145972E-16, -7.499999999999998224 ) ) ;
#44 = PERSON_AND_ORGANIZATION ( #19, #174 ) ;
#45 = CIRCLE ( 'NONE', #158, 7.499999999999997335 ) ;
#46 = APPROVAL_ROLE ( '' ) ;
#47 = ORIENTED_EDGE ( 'NONE', *, *, #149, .F. ) ;
#48 = CARTESIAN_POINT ( 'NONE',  ( -1.614212418857619014, 1.555301434917138433E-15, -12.69999999999999929 ) ) ;
#49 = ORIENTED_EDGE ( 'NONE', *, *, #32, .T. ) ;
#50 = CC_DESIGN_SECURITY_CLASSIFICATION ( #283, ( #334 ) ) ;
#51 = APPROVAL ( #69, 'UNSPECIFIED' ) ;
#52 = AXIS2_PLACEMENT_3D ( 'NONE', #79, #189, #270 ) ;
#53 = VERTEX_POINT ( 'NONE', #218 ) ;
#54 = CIRCLE ( 'NONE', #191, 7.500000000000000000 ) ;
#55 = DIRECTION ( 'NONE',  ( -1.000000000000000000, -0.000000000000000000, -0.000000000000000000 ) ) ;
#56 = PERSON_AND_ORGANIZATION_ROLE ( 'creator' ) ;
#57 = CARTESIAN_POINT ( 'NONE',  ( 0.5000000000000008882, 0.000000000000000000, 0.000000000000000000 ) ) ;
#58 = APPROVAL_STATUS ( 'not_yet_approved' ) ;
#59 = CARTESIAN_POINT ( 'NONE',  ( -3.000000000000000000, 0.000000000000000000, 7.500000000000000000 ) ) ;
#60 = CARTESIAN_POINT ( 'NONE',  ( -1.614212418857619014, 0.000000000000000000, 0.000000000000000000 ) ) ;
#61 = APPROVAL_PERSON_ORGANIZATION ( #119, #153, #277 ) ;
#62 = ORIENTED_EDGE ( 'NONE', *, *, #167, .F. ) ;
#63 = CARTESIAN_POINT ( 'NONE',  ( -1.614212418857619014, 0.000000000000000000, 0.000000000000000000 ) ) ;
#64 = AXIS2_PLACEMENT_3D ( 'NONE', #60, #55, #222 ) ;
#65 = DIRECTION ( 'NONE',  ( 0.000000000000000000, 0.000000000000000000, 1.000000000000000000 ) ) ;
#66 = CARTESIAN_POINT ( 'NONE',  ( -3.000000000000000000, 0.000000000000000000, 0.000000000000000000 ) ) ;
#67 = ADVANCED_FACE ( 'NONE', ( #249 ), #29, .F. ) ;
#68 = DIRECTION ( 'NONE',  ( 0.000000000000000000, 0.000000000000000000, 1.000000000000000000 ) ) ;
#69 = APPROVAL_STATUS ( 'not_yet_approved' ) ;
#70 = AXIS2_PLACEMENT_3D ( 'NONE', #265, #103, #335 ) ;
#71 = ORIENTED_EDGE ( 'NONE', *, *, #128, .F. ) ;
#72 = MANIFOLD_SOLID_BREP ( 'Ðý×', #176 ) ;
#73 = DATE_AND_TIME ( #310, #83 ) ;
#74 = EDGE_LOOP ( 'NONE', ( #62, #136 ) ) ;
#75 = AXIS2_PLACEMENT_3D ( 'NONE', #31, #297, #84 ) ;
#76 = APPLICATION_PROTOCOL_DEFINITION ( 'international standard', 'config_control_design', 1994, #254 ) ;
#77 = ORIENTED_EDGE ( 'NONE', *, *, #272, .F. ) ;
#78 = ADVANCED_FACE ( 'NONE', ( #113 ), #292, .T. ) ;
#79 = CARTESIAN_POINT ( 'NONE',  ( 0.5000000000000004441, 7.500000000000000000, 0.000000000000000000 ) ) ;
#80 = DIRECTION ( 'NONE',  ( -1.000000000000000000, -0.000000000000000000, -0.000000000000000000 ) ) ;
#81 = EDGE_CURVE ( 'NONE', #130, #186, #155, .T. ) ;
#82 = ORIENTED_EDGE ( 'NONE', *, *, #149, .T. ) ;
#83 = LOCAL_TIME ( 10, 35, 14.00000000000000000, #210 ) ;
#84 = DIRECTION ( 'NONE',  ( 0.000000000000000000, 0.000000000000000000, 1.000000000000000000 ) ) ;
#85 = CARTESIAN_POINT ( 'NONE',  ( -0.5000000000000004441, 0.000000000000000000, 0.000000000000000000 ) ) ;
#86 = EDGE_CURVE ( 'NONE', #101, #271, #330, .T. ) ;
#87 = ORIENTED_EDGE ( 'NONE', *, *, #223, .F. ) ;
#88 = AXIS2_PLACEMENT_3D ( 'NONE', #143, #170, #173 ) ;
#89 = COORDINATED_UNIVERSAL_TIME_OFFSET ( 8, 0, .AHEAD. ) ;
#90 = CC_DESIGN_DATE_AND_TIME_ASSIGNMENT ( #226, #118, ( #283 ) ) ;
#91 = CYLINDRICAL_SURFACE ( 'NONE', #151, 7.499999999999998224 ) ;
#92 = DIRECTION ( 'NONE',  ( 0.000000000000000000, 0.000000000000000000, 1.000000000000000000 ) ) ;
#93 = PRODUCT_DEFINITION_SHAPE ( 'NONE', 'NONE',  #319 ) ;
#94 = CARTESIAN_POINT ( 'NONE',  ( 3.000000000000000000, 0.000000000000000000, 7.499999999999997335 ) ) ;
#95 = AXIS2_PLACEMENT_3D ( 'NONE', #63, #145, #303 ) ;
#96 = LINE ( 'NONE', #17, #287 ) ;
#97 = DIRECTION ( 'NONE',  ( -1.000000000000000000, -0.000000000000000000, -0.000000000000000000 ) ) ;
#98 = AXIS2_PLACEMENT_3D ( 'NONE', #57, #220, #268 ) ;
#99 = ADVANCED_BREP_SHAPE_REPRESENTATION ( 'QM-CAHWP-15-900-2100-M', ( #72, #293 ), #8 ) ;
#100 = PERSON_AND_ORGANIZATION ( #19, #174 ) ;
#101 = VERTEX_POINT ( 'NONE', #135 ) ;
#102 = CC_DESIGN_PERSON_AND_ORGANIZATION_ASSIGNMENT ( #171, #144, ( #334 ) ) ;
#103 = DIRECTION ( 'NONE',  ( 1.000000000000000000, 0.000000000000000000, 0.000000000000000000 ) ) ;
#104 = CARTESIAN_POINT ( 'NONE',  ( -3.000000000000000000, 0.000000000000000000, 0.000000000000000000 ) ) ;
#105 = ORIENTED_EDGE ( 'NONE', *, *, #42, .F. ) ;
#106 = CC_DESIGN_PERSON_AND_ORGANIZATION_ASSIGNMENT ( #247, #109, ( #124 ) ) ;
#107 = AXIS2_PLACEMENT_3D ( 'NONE', #306, #40, #229 ) ;
#108 = DIRECTION ( 'NONE',  ( -1.000000000000000000, -0.000000000000000000, -0.000000000000000000 ) ) ;
#109 = PERSON_AND_ORGANIZATION_ROLE ( 'design_owner' ) ;
#110 = FACE_OUTER_BOUND ( 'NONE', #168, .T. ) ;
#111 = APPROVAL_DATE_TIME ( #215, #307 ) ;
#112 = ORIENTED_EDGE ( 'NONE', *, *, #42, .T. ) ;
#113 = FACE_OUTER_BOUND ( 'NONE', #24, .T. ) ;
#114 = CYLINDRICAL_SURFACE ( 'NONE', #75, 7.499999999999998224 ) ;
#115 = ADVANCED_FACE ( 'NONE', ( #110 ), #114, .F. ) ;
#116 = SECURITY_CLASSIFICATION_LEVEL ( 'unclassified' ) ;
#117 = CARTESIAN_POINT ( 'NONE',  ( 3.000000000000000000, 12.69999999999999929, 0.000000000000000000 ) ) ;
#118 = DATE_TIME_ROLE ( 'classification_date' ) ;
#119 = PERSON_AND_ORGANIZATION ( #19, #174 ) ;
#120 = LINE ( 'NONE', #227, #185 ) ;
#121 = CARTESIAN_POINT ( 'NONE',  ( -3.000000000000000000, 0.000000000000000000, 0.000000000000000000 ) ) ;
#122 = DIRECTION ( 'NONE',  ( 0.000000000000000000, 0.000000000000000000, 1.000000000000000000 ) ) ;
#123 = DATE_TIME_ROLE ( 'creation_date' ) ;
#124 = PRODUCT ( 'QM-CAHWP-15-900-2100-M', 'QM-CAHWP-15-900-2100-M', '', ( #23 ) ) ;
#125 = EDGE_LOOP ( 'NONE', ( #263, #195 ) ) ;
#126 = APPROVAL_ROLE ( '' ) ;
#127 = ORIENTED_EDGE ( 'NONE', *, *, #205, .F. ) ;
#128 = EDGE_CURVE ( 'NONE', #154, #34, #245, .T. ) ;
#129 = DIRECTION ( 'NONE',  ( 0.000000000000000000, 0.000000000000000000, 1.000000000000000000 ) ) ;
#130 = VERTEX_POINT ( 'NONE', #231 ) ;
#131 = ORIENTED_EDGE ( 'NONE', *, *, #223, .T. ) ;
#132 = CARTESIAN_POINT ( 'NONE',  ( 3.000000000000000000, 0.000000000000000000, 0.000000000000000000 ) ) ;
#133 = AXIS2_PLACEMENT_3D ( 'NONE', #203, #304, #281 ) ;
#134 = FACE_BOUND ( 'NONE', #74, .T. ) ;
#135 = CARTESIAN_POINT ( 'NONE',  ( -0.5000000000000004441, 0.000000000000000000, 7.499999999999998224 ) ) ;
#136 = ORIENTED_EDGE ( 'NONE', *, *, #286, .F. ) ;
#137 = SHAPE_DEFINITION_REPRESENTATION ( #93, #99 ) ;
#138 = EDGE_CURVE ( 'NONE', #101, #7, #324, .T. ) ;
#139 = ORIENTED_EDGE ( 'NONE', *, *, #205, .T. ) ;
#140 = CIRCLE ( 'NONE', #196, 7.500000000000000000 ) ;
#141 = CC_DESIGN_DATE_AND_TIME_ASSIGNMENT ( #21, #123, ( #319 ) ) ;
#142 = VERTEX_POINT ( 'NONE', #172 ) ;
#143 = CARTESIAN_POINT ( 'NONE',  ( 3.000000000000000000, 0.000000000000000000, 0.000000000000000000 ) ) ;
#144 = PERSON_AND_ORGANIZATION_ROLE ( 'creator' ) ;
#145 = DIRECTION ( 'NONE',  ( -1.000000000000000000, -0.000000000000000000, -0.000000000000000000 ) ) ;
#146 = LOCAL_TIME ( 10, 35, 14.00000000000000000, #6 ) ;
#147 = CARTESIAN_POINT ( 'NONE',  ( -0.5000000000000004441, 0.000000000000000000, 0.000000000000000000 ) ) ;
#148 = CARTESIAN_POINT ( 'NONE',  ( -3.000000000000000000, 0.000000000000000000, 0.000000000000000000 ) ) ;
#149 = EDGE_CURVE ( 'NONE', #142, #53, #12, .T. ) ;
#150 = LINE ( 'NONE', #258, #327 ) ;
#151 = AXIS2_PLACEMENT_3D ( 'NONE', #228, #198, #325 ) ;
#152 = CALENDAR_DATE ( 2021, 5, 1 ) ;
#153 = APPROVAL ( #58, 'UNSPECIFIED' ) ;
#154 = VERTEX_POINT ( 'NONE', #256 ) ;
#155 = CIRCLE ( 'NONE', #98, 7.500000000000000000 ) ;
#156 = APPLICATION_PROTOCOL_DEFINITION ( 'international standard', 'config_control_design', 1994, #288 ) ;
#157 = ORIENTED_EDGE ( 'NONE', *, *, #209, .T. ) ;
#158 = AXIS2_PLACEMENT_3D ( 'NONE', #30, #188, #129 ) ;
#159 = ORIENTED_EDGE ( 'NONE', *, *, #138, .T. ) ;
#160 = AXIS2_PLACEMENT_3D ( 'NONE', #11, #10, #313 ) ;
#161 = DIRECTION ( 'NONE',  ( 0.000000000000000000, 0.000000000000000000, 1.000000000000000000 ) ) ;
#162 = EDGE_CURVE ( 'NONE', #186, #130, #54, .T. ) ;
#163 = AXIS2_PLACEMENT_3D ( 'NONE', #117, #225, #200 ) ;
#164 = DIRECTION ( 'NONE',  ( -1.000000000000000000, -0.000000000000000000, -0.000000000000000000 ) ) ;
#165 = DIRECTION ( 'NONE',  ( 0.000000000000000000, 0.000000000000000000, 1.000000000000000000 ) ) ;
#166 = APPROVAL_DATE_TIME ( #295, #153 ) ;
#167 = EDGE_CURVE ( 'NONE', #7, #238, #309, .T. ) ;
#168 = EDGE_LOOP ( 'NONE', ( #311, #112, #193, #234 ) ) ;
#169 = CALENDAR_DATE ( 2021, 5, 1 ) ;
#170 = DIRECTION ( 'NONE',  ( -1.000000000000000000, -0.000000000000000000, -0.000000000000000000 ) ) ;
#171 = PERSON_AND_ORGANIZATION ( #19, #174 ) ;
#172 = CARTESIAN_POINT ( 'NONE',  ( 3.000000000000000000, 0.000000000000000000, 12.69999999999999929 ) ) ;
#173 = DIRECTION ( 'NONE',  ( 0.000000000000000000, 0.000000000000000000, 1.000000000000000000 ) ) ;
#174 = ORGANIZATION ( 'UNSPECIFIED', 'UNSPECIFIED', '' ) ;
#175 = CARTESIAN_POINT ( 'NONE',  ( -3.000000000000000000, 9.184850993605147944E-16, -7.500000000000000000 ) ) ;
#176 = CLOSED_SHELL ( 'NONE', ( #9, #115, #269, #67, #240, #230, #291, #78, #197, #38 ) ) ;
#177 = CARTESIAN_POINT ( 'NONE',  ( 0.000000000000000000, 0.000000000000000000, 0.000000000000000000 ) ) ;
#178 = DIRECTION ( 'NONE',  ( -1.000000000000000000, -0.000000000000000000, -0.000000000000000000 ) ) ;
#179 = ORIENTED_EDGE ( 'NONE', *, *, #81, .F. ) ;
#180 = FACE_OUTER_BOUND ( 'NONE', #125, .T. ) ;
#181 = ORIENTED_EDGE ( 'NONE', *, *, #217, .T. ) ;
#182 = CC_DESIGN_PERSON_AND_ORGANIZATION_ASSIGNMENT ( #321, #298, ( #334 ) ) ;
#183 = EDGE_LOOP ( 'NONE', ( #332, #216, #1, #266 ) ) ;
#184 = DESIGN_CONTEXT ( 'detailed design', #288, 'design' ) ;
#185 = VECTOR ( 'NONE', #279, 1000.000000000000000 ) ;
#186 = VERTEX_POINT ( 'NONE', #276 ) ;
#187 = ORIENTED_EDGE ( 'NONE', *, *, #217, .F. ) ;
#188 = DIRECTION ( 'NONE',  ( -1.000000000000000000, -0.000000000000000000, -0.000000000000000000 ) ) ;
#189 = DIRECTION ( 'NONE',  ( -1.000000000000000000, 0.000000000000000000, -0.000000000000000000 ) ) ;
#190 = CARTESIAN_POINT ( 'NONE',  ( -1.614212418857619014, 0.000000000000000000, 0.000000000000000000 ) ) ;
#191 = AXIS2_PLACEMENT_3D ( 'NONE', #252, #204, #92 ) ;
#192 = COORDINATED_UNIVERSAL_TIME_OFFSET ( 8, 0, .AHEAD. ) ;
#193 = ORIENTED_EDGE ( 'NONE', *, *, #286, .T. ) ;
#194 = DIRECTION ( 'NONE',  ( 1.000000000000000000, 0.000000000000000000, 0.000000000000000000 ) ) ;
#195 = ORIENTED_EDGE ( 'NONE', *, *, #242, .T. ) ;
#196 = AXIS2_PLACEMENT_3D ( 'NONE', #104, #164, #331 ) ;
#197 = ADVANCED_FACE ( 'NONE', ( #37, #278 ), #280, .F. ) ;
#198 = DIRECTION ( 'NONE',  ( -1.000000000000000000, -0.000000000000000000, -0.000000000000000000 ) ) ;
#199 = AXIS2_PLACEMENT_3D ( 'NONE', #85, #194, #317 ) ;
#200 = DIRECTION ( 'NONE',  ( -0.000000000000000000, 0.000000000000000000, 1.000000000000000000 ) ) ;
#201 = FACE_OUTER_BOUND ( 'NONE', #183, .T. ) ;
#202 = CIRCLE ( 'NONE', #39, 7.499999999999998224 ) ;
#203 = CARTESIAN_POINT ( 'NONE',  ( -1.614212418857619014, 0.000000000000000000, 0.000000000000000000 ) ) ;
#204 = DIRECTION ( 'NONE',  ( -1.000000000000000000, -0.000000000000000000, -0.000000000000000000 ) ) ;
#205 = EDGE_CURVE ( 'NONE', #142, #154, #120, .T. ) ;
#206 =( NAMED_UNIT ( * ) SI_UNIT ( $, .STERADIAN. ) SOLID_ANGLE_UNIT ( ) );
#207 = EDGE_LOOP ( 'NONE', ( #308, #87 ) ) ;
#208 = LOCAL_TIME ( 10, 35, 14.00000000000000000, #314 ) ;
#209 = EDGE_CURVE ( 'NONE', #300, #130, #96, .T. ) ;
#210 = COORDINATED_UNIVERSAL_TIME_OFFSET ( 8, 0, .AHEAD. ) ;
#211 = ORIENTED_EDGE ( 'NONE', *, *, #333, .T. ) ;
#212 = EDGE_LOOP ( 'NONE', ( #105, #131, #159, #5 ) ) ;
#213 = CC_DESIGN_APPROVAL ( #307, ( #319 ) ) ;
#214 = CARTESIAN_POINT ( 'NONE',  ( -3.000000000000000000, 1.555301434917138433E-15, -12.69999999999999929 ) ) ;
#215 = DATE_AND_TIME ( #260, #208 ) ;
#216 = ORIENTED_EDGE ( 'NONE', *, *, #333, .F. ) ;
#217 = EDGE_CURVE ( 'NONE', #53, #142, #259, .T. ) ;
#218 = CARTESIAN_POINT ( 'NONE',  ( 3.000000000000000000, 1.555301434917138433E-15, -12.69999999999999929 ) ) ;
#219 = LOCAL_TIME ( 10, 35, 14.00000000000000000, #192 ) ;
#220 = DIRECTION ( 'NONE',  ( -1.000000000000000000, -0.000000000000000000, -0.000000000000000000 ) ) ;
#221 = CIRCLE ( 'NONE', #305, 7.499999999999997335 ) ;
#222 = DIRECTION ( 'NONE',  ( 0.000000000000000000, 0.000000000000000000, 1.000000000000000000 ) ) ;
#223 = EDGE_CURVE ( 'NONE', #271, #101, #202, .T. ) ;
#224 = PERSON_AND_ORGANIZATION_ROLE ( 'classification_officer' ) ;
#225 = DIRECTION ( 'NONE',  ( -1.000000000000000000, 0.000000000000000000, -0.000000000000000000 ) ) ;
#226 = DATE_AND_TIME ( #15, #219 ) ;
#227 = CARTESIAN_POINT ( 'NONE',  ( -1.614212418857619014, 0.000000000000000000, 12.69999999999999929 ) ) ;
#228 = CARTESIAN_POINT ( 'NONE',  ( -1.614212418857619014, 0.000000000000000000, 0.000000000000000000 ) ) ;
#229 = DIRECTION ( 'NONE',  ( 0.000000000000000000, 0.000000000000000000, 1.000000000000000000 ) ) ;
#230 = ADVANCED_FACE ( 'NONE', ( #18 ), #91, .F. ) ;
#231 = CARTESIAN_POINT ( 'NONE',  ( 0.5000000000000008882, 9.184850993605147944E-16, -7.500000000000000000 ) ) ;
#232 =( LENGTH_UNIT ( ) NAMED_UNIT ( * ) SI_UNIT ( .MILLI., .METRE. ) );
#233 = APPROVAL_STATUS ( 'not_yet_approved' ) ;
#234 = ORIENTED_EDGE ( 'NONE', *, *, #138, .F. ) ;
#235 = APPROVAL_PERSON_ORGANIZATION ( #261, #307, #126 ) ;
#236 =( NAMED_UNIT ( * ) PLANE_ANGLE_UNIT ( ) SI_UNIT ( $, .RADIAN. ) );
#237 = VERTEX_POINT ( 'NONE', #94 ) ;
#238 = VERTEX_POINT ( 'NONE', #175 ) ;
#239 = EDGE_LOOP ( 'NONE', ( #290, #179 ) ) ;
#240 = ADVANCED_FACE ( 'NONE', ( #201 ), #301, .F. ) ;
#241 = ORIENTED_EDGE ( 'NONE', *, *, #322, .F. ) ;
#242 = EDGE_CURVE ( 'NONE', #34, #154, #16, .T. ) ;
#243 = DIRECTION ( 'NONE',  ( 1.000000000000000000, 0.000000000000000000, 0.000000000000000000 ) ) ;
#244 = CYLINDRICAL_SURFACE ( 'NONE', #64, 12.69999999999999929 ) ;
#245 = CIRCLE ( 'NONE', #312, 12.69999999999999929 ) ;
#246 = VECTOR ( 'NONE', #328, 1000.000000000000000 ) ;
#247 = PERSON_AND_ORGANIZATION ( #19, #174 ) ;
#248 = ORIENTED_EDGE ( 'NONE', *, *, #32, .F. ) ;
#249 = FACE_OUTER_BOUND ( 'NONE', #239, .T. ) ;
#250 = EDGE_LOOP ( 'NONE', ( #211, #49 ) ) ;
#251 = AXIS2_PLACEMENT_3D ( 'NONE', #190, #318, #161 ) ;
#252 = CARTESIAN_POINT ( 'NONE',  ( 0.5000000000000008882, 0.000000000000000000, 0.000000000000000000 ) ) ;
#253 = PERSON_AND_ORGANIZATION ( #19, #174 ) ;
#254 = APPLICATION_CONTEXT ( 'configuration controlled 3d designs of mechanical parts and assemblies' ) ;
#255 = DIRECTION ( 'NONE',  ( -1.000000000000000000, -0.000000000000000000, -0.000000000000000000 ) ) ;
#256 = CARTESIAN_POINT ( 'NONE',  ( -3.000000000000000000, 0.000000000000000000, 12.69999999999999929 ) ) ;
#257 = DIRECTION ( 'NONE',  ( 1.000000000000000000, 0.000000000000000000, 0.000000000000000000 ) ) ;
#258 = CARTESIAN_POINT ( 'NONE',  ( -1.614212418857619014, 0.000000000000000000, 7.499999999999998224 ) ) ;
#259 = CIRCLE ( 'NONE', #107, 12.69999999999999929 ) ;
#260 = CALENDAR_DATE ( 2021, 5, 1 ) ;
#261 = PERSON_AND_ORGANIZATION ( #19, #174 ) ;
#262 = VECTOR ( 'NONE', #273, 1000.000000000000000 ) ;
#263 = ORIENTED_EDGE ( 'NONE', *, *, #128, .T. ) ;
#264 = CC_DESIGN_PERSON_AND_ORGANIZATION_ASSIGNMENT ( #44, #56, ( #319 ) ) ;
#265 = CARTESIAN_POINT ( 'NONE',  ( -3.000000000000000000, 7.500000000000000000, 0.000000000000000000 ) ) ;
#266 = ORIENTED_EDGE ( 'NONE', *, *, #162, .T. ) ;
#267 = CARTESIAN_POINT ( 'NONE',  ( -1.614212418857619014, 9.184850993605145972E-16, -7.499999999999998224 ) ) ;
#268 = DIRECTION ( 'NONE',  ( 0.000000000000000000, 0.000000000000000000, 1.000000000000000000 ) ) ;
#269 = ADVANCED_FACE ( 'NONE', ( #41 ), #326, .F. ) ;
#270 = DIRECTION ( 'NONE',  ( -0.000000000000000000, 0.000000000000000000, 1.000000000000000000 ) ) ;
#271 = VERTEX_POINT ( 'NONE', #43 ) ;
#272 = EDGE_CURVE ( 'NONE', #237, #186, #150, .T. ) ;
#273 = DIRECTION ( 'NONE',  ( -1.000000000000000000, -0.000000000000000000, -0.000000000000000000 ) ) ;
#274 = LOCAL_TIME ( 10, 35, 14.00000000000000000, #89 ) ;
#275 = PRODUCT_RELATED_PRODUCT_CATEGORY ( 'detail', '', ( #124 ) ) ;
#276 = CARTESIAN_POINT ( 'NONE',  ( 0.5000000000000008882, 0.000000000000000000, 7.500000000000000000 ) ) ;
#277 = APPROVAL_ROLE ( '' ) ;
#278 = FACE_BOUND ( 'NONE', #250, .T. ) ;
#279 = DIRECTION ( 'NONE',  ( -1.000000000000000000, -0.000000000000000000, -0.000000000000000000 ) ) ;
#280 = PLANE ( 'NONE',  #163 ) ;
#281 = DIRECTION ( 'NONE',  ( 0.000000000000000000, 0.000000000000000000, 1.000000000000000000 ) ) ;
#282 = DIRECTION ( 'NONE',  ( 0.000000000000000000, 0.000000000000000000, 1.000000000000000000 ) ) ;
#283 = SECURITY_CLASSIFICATION ( '', '', #116 ) ;
#284 = EDGE_LOOP ( 'NONE', ( #248, #157, #33, #77 ) ) ;
#285 = CARTESIAN_POINT ( 'NONE',  ( 3.000000000000000000, 9.184850993605144000E-16, -7.499999999999997335 ) ) ;
#286 = EDGE_CURVE ( 'NONE', #238, #7, #140, .T. ) ;
#287 = VECTOR ( 'NONE', #302, 1000.000000000000000 ) ;
#288 = APPLICATION_CONTEXT ( 'configuration controlled 3d designs of mechanical parts and assemblies' ) ;
#289 = ORIENTED_EDGE ( 'NONE', *, *, #322, .T. ) ;
#290 = ORIENTED_EDGE ( 'NONE', *, *, #162, .F. ) ;
#291 = ADVANCED_FACE ( 'NONE', ( #134, #180 ), #4, .F. ) ;
#292 = CYLINDRICAL_SURFACE ( 'NONE', #251, 12.69999999999999929 ) ;
#293 = AXIS2_PLACEMENT_3D ( 'NONE', #177, #282, #243 ) ;
#294 = PLANE ( 'NONE',  #160 ) ;
#295 = DATE_AND_TIME ( #169, #274 ) ;
#296 = EDGE_LOOP ( 'NONE', ( #47, #187 ) ) ;
#297 = DIRECTION ( 'NONE',  ( -1.000000000000000000, -0.000000000000000000, -0.000000000000000000 ) ) ;
#298 = PERSON_AND_ORGANIZATION_ROLE ( 'design_supplier' ) ;
#299 = AXIS2_PLACEMENT_3D ( 'NONE', #148, #97, #65 ) ;
#300 = VERTEX_POINT ( 'NONE', #285 ) ;
#301 = CYLINDRICAL_SURFACE ( 'NONE', #95, 7.499999999999998224 ) ;
#302 = DIRECTION ( 'NONE',  ( -1.000000000000000000, -0.000000000000000000, -0.000000000000000000 ) ) ;
#303 = DIRECTION ( 'NONE',  ( 0.000000000000000000, 0.000000000000000000, 1.000000000000000000 ) ) ;
#304 = DIRECTION ( 'NONE',  ( -1.000000000000000000, -0.000000000000000000, -0.000000000000000000 ) ) ;
#305 = AXIS2_PLACEMENT_3D ( 'NONE', #132, #108, #165 ) ;
#306 = CARTESIAN_POINT ( 'NONE',  ( 3.000000000000000000, 0.000000000000000000, 0.000000000000000000 ) ) ;
#307 = APPROVAL ( #233, 'UNSPECIFIED' ) ;
#308 = ORIENTED_EDGE ( 'NONE', *, *, #86, .F. ) ;
#309 = CIRCLE ( 'NONE', #299, 7.500000000000000000 ) ;
#310 = CALENDAR_DATE ( 2021, 5, 1 ) ;
#311 = ORIENTED_EDGE ( 'NONE', *, *, #86, .T. ) ;
#312 = AXIS2_PLACEMENT_3D ( 'NONE', #121, #36, #122 ) ;
#313 = DIRECTION ( 'NONE',  ( 0.000000000000000000, 0.000000000000000000, -1.000000000000000000 ) ) ;
#314 = COORDINATED_UNIVERSAL_TIME_OFFSET ( 8, 0, .AHEAD. ) ;
#315 = FACE_OUTER_BOUND ( 'NONE', #207, .T. ) ;
#316 = VECTOR ( 'NONE', #80, 1000.000000000000000 ) ;
#317 = DIRECTION ( 'NONE',  ( 0.000000000000000000, 0.000000000000000000, -1.000000000000000000 ) ) ;
#318 = DIRECTION ( 'NONE',  ( -1.000000000000000000, -0.000000000000000000, -0.000000000000000000 ) ) ;
#319 = PRODUCT_DEFINITION ( 'UNKNOWN', '', #334, #184 ) ;
#320 = LINE ( 'NONE', #267, #262 ) ;
#321 = PERSON_AND_ORGANIZATION ( #19, #174 ) ;
#322 = EDGE_CURVE ( 'NONE', #53, #34, #25, .T. ) ;
#323 = DIRECTION ( 'NONE',  ( 0.000000000000000000, 0.000000000000000000, -1.000000000000000000 ) ) ;
#324 = LINE ( 'NONE', #14, #246 ) ;
#325 = DIRECTION ( 'NONE',  ( 0.000000000000000000, 0.000000000000000000, 1.000000000000000000 ) ) ;
#326 = CYLINDRICAL_SURFACE ( 'NONE', #133, 7.499999999999998224 ) ;
#327 = VECTOR ( 'NONE', #178, 1000.000000000000000 ) ;
#328 = DIRECTION ( 'NONE',  ( -1.000000000000000000, -0.000000000000000000, -0.000000000000000000 ) ) ;
#329 = CC_DESIGN_PERSON_AND_ORGANIZATION_ASSIGNMENT ( #253, #224, ( #283 ) ) ;
#330 = CIRCLE ( 'NONE', #199, 7.499999999999998224 ) ;
#331 = DIRECTION ( 'NONE',  ( 0.000000000000000000, 0.000000000000000000, 1.000000000000000000 ) ) ;
#332 = ORIENTED_EDGE ( 'NONE', *, *, #209, .F. ) ;
#333 = EDGE_CURVE ( 'NONE', #237, #300, #45, .T. ) ;
#334 = PRODUCT_DEFINITION_FORMATION_WITH_SPECIFIED_SOURCE ( 'ANY', '', #124, .NOT_KNOWN. ) ;
#335 = DIRECTION ( 'NONE',  ( 0.000000000000000000, 0.000000000000000000, -1.000000000000000000 ) ) ;
ENDSEC;
END-ISO-10303-21;
